ISO-10303-21;
HEADER;
FILE_DESCRIPTION(('FreeCAD Model'),'2;1');
FILE_NAME('Open CASCADE Shape Model','2024-04-11T11:46:25',('Author'),(
    ''),'Open CASCADE STEP processor 7.6','FreeCAD','Unknown');
FILE_SCHEMA(('AUTOMOTIVE_DESIGN { 1 0 10303 214 1 1 1 1 }'));
ENDSEC;
DATA;
#1 = APPLICATION_PROTOCOL_DEFINITION('international standard',
  'automotive_design',2000,#2);
#2 = APPLICATION_CONTEXT(
  'core data for automotive mechanical design processes');
#3 = SHAPE_DEFINITION_REPRESENTATION(#4,#10);
#4 = PRODUCT_DEFINITION_SHAPE('','',#5);
#5 = PRODUCT_DEFINITION('design','',#6,#9);
#6 = PRODUCT_DEFINITION_FORMATION('','',#7);
#7 = PRODUCT('Chamfer','Chamfer','',(#8));
#8 = PRODUCT_CONTEXT('',#2,'mechanical');
#9 = PRODUCT_DEFINITION_CONTEXT('part definition',#2,'design');
#10 = ADVANCED_BREP_SHAPE_REPRESENTATION('',(#11,#15),#706);
#11 = AXIS2_PLACEMENT_3D('',#12,#13,#14);
#12 = CARTESIAN_POINT('',(0.,0.,0.));
#13 = DIRECTION('',(0.,0.,1.));
#14 = DIRECTION('',(1.,0.,-0.));
#15 = MANIFOLD_SOLID_BREP('',#16);
#16 = CLOSED_SHELL('',(#17,#59,#90,#122,#154,#185,#271,#295,#312,#336,
    #364,#381,#413,#425,#442,#466,#483,#507,#531,#567,#584,#609,#627,
    #639,#664,#689));
#17 = ADVANCED_FACE('',(#18),#54,.T.);
#18 = FACE_BOUND('',#19,.F.);
#19 = EDGE_LOOP('',(#20,#30,#39,#47));
#20 = ORIENTED_EDGE('',*,*,#21,.F.);
#21 = EDGE_CURVE('',#22,#24,#26,.T.);
#22 = VERTEX_POINT('',#23);
#23 = CARTESIAN_POINT('',(4.7,-2.7,0.5));
#24 = VERTEX_POINT('',#25);
#25 = CARTESIAN_POINT('',(4.7,-2.7,1.8));
#26 = LINE('',#27,#28);
#27 = CARTESIAN_POINT('',(4.7,-2.7,0.));
#28 = VECTOR('',#29,1.);
#29 = DIRECTION('',(0.,0.,1.));
#30 = ORIENTED_EDGE('',*,*,#31,.F.);
#31 = EDGE_CURVE('',#32,#22,#34,.T.);
#32 = VERTEX_POINT('',#33);
#33 = CARTESIAN_POINT('',(-0.7,-2.7,0.5));
#34 = CIRCLE('',#35,2.7);
#35 = AXIS2_PLACEMENT_3D('',#36,#37,#38);
#36 = CARTESIAN_POINT('',(2.,-2.7,0.5));
#37 = DIRECTION('',(0.,0.,1.));
#38 = DIRECTION('',(-1.,0.,0.));
#39 = ORIENTED_EDGE('',*,*,#40,.T.);
#40 = EDGE_CURVE('',#32,#41,#43,.T.);
#41 = VERTEX_POINT('',#42);
#42 = CARTESIAN_POINT('',(-0.7,-2.7,1.8));
#43 = LINE('',#44,#45);
#44 = CARTESIAN_POINT('',(-0.7,-2.7,0.));
#45 = VECTOR('',#46,1.);
#46 = DIRECTION('',(0.,0.,1.));
#47 = ORIENTED_EDGE('',*,*,#48,.F.);
#48 = EDGE_CURVE('',#24,#41,#49,.T.);
#49 = CIRCLE('',#50,2.7);
#50 = AXIS2_PLACEMENT_3D('',#51,#52,#53);
#51 = CARTESIAN_POINT('',(2.,-2.7,1.8));
#52 = DIRECTION('',(0.,0.,-1.));
#53 = DIRECTION('',(0.,1.,0.));
#54 = CYLINDRICAL_SURFACE('',#55,2.7);
#55 = AXIS2_PLACEMENT_3D('',#56,#57,#58);
#56 = CARTESIAN_POINT('',(2.,-2.7,0.));
#57 = DIRECTION('',(0.,0.,-1.));
#58 = DIRECTION('',(-1.,0.,0.));
#59 = ADVANCED_FACE('',(#60),#85,.F.);
#60 = FACE_BOUND('',#61,.F.);
#61 = EDGE_LOOP('',(#62,#72,#78,#79));
#62 = ORIENTED_EDGE('',*,*,#63,.F.);
#63 = EDGE_CURVE('',#64,#66,#68,.T.);
#64 = VERTEX_POINT('',#65);
#65 = CARTESIAN_POINT('',(4.7,0.,0.5));
#66 = VERTEX_POINT('',#67);
#67 = CARTESIAN_POINT('',(4.7,1.309116882454E-16,1.8));
#68 = LINE('',#69,#70);
#69 = CARTESIAN_POINT('',(4.7,0.,0.));
#70 = VECTOR('',#71,1.);
#71 = DIRECTION('',(0.,0.,1.));
#72 = ORIENTED_EDGE('',*,*,#73,.F.);
#73 = EDGE_CURVE('',#22,#64,#74,.T.);
#74 = LINE('',#75,#76);
#75 = CARTESIAN_POINT('',(4.7,-2.7,0.5));
#76 = VECTOR('',#77,1.);
#77 = DIRECTION('',(1.6E-16,1.,0.));
#78 = ORIENTED_EDGE('',*,*,#21,.T.);
#79 = ORIENTED_EDGE('',*,*,#80,.F.);
#80 = EDGE_CURVE('',#66,#24,#81,.T.);
#81 = LINE('',#82,#83);
#82 = CARTESIAN_POINT('',(4.7,-2.7,1.8));
#83 = VECTOR('',#84,1.);
#84 = DIRECTION('',(-1.6E-16,-1.,1.6E-16));
#85 = PLANE('',#86);
#86 = AXIS2_PLACEMENT_3D('',#87,#88,#89);
#87 = CARTESIAN_POINT('',(4.7,-2.7,0.));
#88 = DIRECTION('',(-1.,1.6E-16,0.));
#89 = DIRECTION('',(1.6E-16,1.,0.));
#90 = ADVANCED_FACE('',(#91),#117,.T.);
#91 = FACE_BOUND('',#92,.F.);
#92 = EDGE_LOOP('',(#93,#101,#102,#110));
#93 = ORIENTED_EDGE('',*,*,#94,.F.);
#94 = EDGE_CURVE('',#32,#95,#97,.T.);
#95 = VERTEX_POINT('',#96);
#96 = CARTESIAN_POINT('',(-0.2,-2.7,0.));
#97 = LINE('',#98,#99);
#98 = CARTESIAN_POINT('',(-0.45,-2.7,0.25));
#99 = VECTOR('',#100,1.);
#100 = DIRECTION('',(0.707106781187,0.,-0.707106781187));
#101 = ORIENTED_EDGE('',*,*,#31,.T.);
#102 = ORIENTED_EDGE('',*,*,#103,.T.);
#103 = EDGE_CURVE('',#22,#104,#106,.T.);
#104 = VERTEX_POINT('',#105);
#105 = CARTESIAN_POINT('',(4.2,-2.7,0.));
#106 = LINE('',#107,#108);
#107 = CARTESIAN_POINT('',(4.7,-2.7,0.5));
#108 = VECTOR('',#109,1.);
#109 = DIRECTION('',(-0.707106781187,8.659560562355E-17,-0.707106781187)
  );
#110 = ORIENTED_EDGE('',*,*,#111,.F.);
#111 = EDGE_CURVE('',#95,#104,#112,.T.);
#112 = CIRCLE('',#113,2.2);
#113 = AXIS2_PLACEMENT_3D('',#114,#115,#116);
#114 = CARTESIAN_POINT('',(2.,-2.7,0.));
#115 = DIRECTION('',(0.,0.,1.));
#116 = DIRECTION('',(-1.,0.,0.));
#117 = CONICAL_SURFACE('',#118,2.7,0.785398163397);
#118 = AXIS2_PLACEMENT_3D('',#119,#120,#121);
#119 = CARTESIAN_POINT('',(2.,-2.7,0.5));
#120 = DIRECTION('',(0.,0.,1.));
#121 = DIRECTION('',(-1.,0.,0.));
#122 = ADVANCED_FACE('',(#123),#149,.T.);
#123 = FACE_BOUND('',#124,.T.);
#124 = EDGE_LOOP('',(#125,#133,#134,#142));
#125 = ORIENTED_EDGE('',*,*,#126,.F.);
#126 = EDGE_CURVE('',#41,#127,#129,.T.);
#127 = VERTEX_POINT('',#128);
#128 = CARTESIAN_POINT('',(0.,-2.7,2.5));
#129 = LINE('',#130,#131);
#130 = CARTESIAN_POINT('',(-1.,-2.7,1.5));
#131 = VECTOR('',#132,1.);
#132 = DIRECTION('',(0.707106781187,1.6E-16,0.707106781187));
#133 = ORIENTED_EDGE('',*,*,#48,.F.);
#134 = ORIENTED_EDGE('',*,*,#135,.T.);
#135 = EDGE_CURVE('',#24,#136,#138,.T.);
#136 = VERTEX_POINT('',#137);
#137 = CARTESIAN_POINT('',(4.,-2.7,2.5));
#138 = LINE('',#139,#140);
#139 = CARTESIAN_POINT('',(5.,-2.7,1.5));
#140 = VECTOR('',#141,1.);
#141 = DIRECTION('',(-0.707106781187,7.E-17,0.707106781187));
#142 = ORIENTED_EDGE('',*,*,#143,.F.);
#143 = EDGE_CURVE('',#127,#136,#144,.T.);
#144 = CIRCLE('',#145,2.);
#145 = AXIS2_PLACEMENT_3D('',#146,#147,#148);
#146 = CARTESIAN_POINT('',(2.,-2.7,2.5));
#147 = DIRECTION('',(0.,-0.,1.));
#148 = DIRECTION('',(1.,1.5E-16,0.));
#149 = CONICAL_SURFACE('',#150,3.,0.785398163397);
#150 = AXIS2_PLACEMENT_3D('',#151,#152,#153);
#151 = CARTESIAN_POINT('',(2.,-2.7,1.5));
#152 = DIRECTION('',(-0.,-0.,-1.));
#153 = DIRECTION('',(1.,1.5E-16,0.));
#154 = ADVANCED_FACE('',(#155),#180,.F.);
#155 = FACE_BOUND('',#156,.F.);
#156 = EDGE_LOOP('',(#157,#158,#166,#174));
#157 = ORIENTED_EDGE('',*,*,#40,.F.);
#158 = ORIENTED_EDGE('',*,*,#159,.F.);
#159 = EDGE_CURVE('',#160,#32,#162,.T.);
#160 = VERTEX_POINT('',#161);
#161 = CARTESIAN_POINT('',(-0.7,0.,0.5));
#162 = LINE('',#163,#164);
#163 = CARTESIAN_POINT('',(-0.7,0.,0.5));
#164 = VECTOR('',#165,1.);
#165 = DIRECTION('',(0.,-1.,0.));
#166 = ORIENTED_EDGE('',*,*,#167,.T.);
#167 = EDGE_CURVE('',#160,#168,#170,.T.);
#168 = VERTEX_POINT('',#169);
#169 = CARTESIAN_POINT('',(-0.7,-3.26058874503E-16,1.8));
#170 = LINE('',#171,#172);
#171 = CARTESIAN_POINT('',(-0.7,0.,0.));
#172 = VECTOR('',#173,1.);
#173 = DIRECTION('',(0.,0.,1.));
#174 = ORIENTED_EDGE('',*,*,#175,.F.);
#175 = EDGE_CURVE('',#41,#168,#176,.T.);
#176 = LINE('',#177,#178);
#177 = CARTESIAN_POINT('',(-0.7,-3.6E-16,1.8));
#178 = VECTOR('',#179,1.);
#179 = DIRECTION('',(0.,1.,0.));
#180 = PLANE('',#181);
#181 = AXIS2_PLACEMENT_3D('',#182,#183,#184);
#182 = CARTESIAN_POINT('',(-0.7,0.,0.));
#183 = DIRECTION('',(1.,0.,0.));
#184 = DIRECTION('',(0.,-1.,0.));
#185 = ADVANCED_FACE('',(#186),#266,.F.);
#186 = FACE_BOUND('',#187,.F.);
#187 = EDGE_LOOP('',(#188,#189,#195,#196,#204,#212,#220,#228,#236,#244,
    #252,#260));
#188 = ORIENTED_EDGE('',*,*,#167,.F.);
#189 = ORIENTED_EDGE('',*,*,#190,.F.);
#190 = EDGE_CURVE('',#64,#160,#191,.T.);
#191 = LINE('',#192,#193);
#192 = CARTESIAN_POINT('',(4.7,0.,0.5));
#193 = VECTOR('',#194,1.);
#194 = DIRECTION('',(-1.,0.,0.));
#195 = ORIENTED_EDGE('',*,*,#63,.T.);
#196 = ORIENTED_EDGE('',*,*,#197,.T.);
#197 = EDGE_CURVE('',#66,#198,#200,.T.);
#198 = VERTEX_POINT('',#199);
#199 = CARTESIAN_POINT('',(4.,1.E-15,2.5));
#200 = LINE('',#201,#202);
#201 = CARTESIAN_POINT('',(5.,1.6E-16,1.5));
#202 = VECTOR('',#203,1.);
#203 = DIRECTION('',(-0.707106781187,2.4E-16,0.707106781187));
#204 = ORIENTED_EDGE('',*,*,#205,.T.);
#205 = EDGE_CURVE('',#198,#206,#208,.T.);
#206 = VERTEX_POINT('',#207);
#207 = CARTESIAN_POINT('',(4.,-1.E-15,7.));
#208 = LINE('',#209,#210);
#209 = CARTESIAN_POINT('',(4.,5.E-16,2.5));
#210 = VECTOR('',#211,1.);
#211 = DIRECTION('',(0.,-2.2E-16,1.));
#212 = ORIENTED_EDGE('',*,*,#213,.T.);
#213 = EDGE_CURVE('',#206,#214,#216,.T.);
#214 = VERTEX_POINT('',#215);
#215 = CARTESIAN_POINT('',(4.7,-5.271858582251E-16,7.7));
#216 = LINE('',#217,#218);
#217 = CARTESIAN_POINT('',(4.,-5.E-16,7.));
#218 = VECTOR('',#219,1.);
#219 = DIRECTION('',(0.707106781187,-5.6E-16,0.707106781187));
#220 = ORIENTED_EDGE('',*,*,#221,.T.);
#221 = EDGE_CURVE('',#214,#222,#224,.T.);
#222 = VERTEX_POINT('',#223);
#223 = CARTESIAN_POINT('',(4.7,0.,8.7));
#224 = LINE('',#225,#226);
#225 = CARTESIAN_POINT('',(4.7,0.,0.));
#226 = VECTOR('',#227,1.);
#227 = DIRECTION('',(0.,0.,1.));
#228 = ORIENTED_EDGE('',*,*,#229,.T.);
#229 = EDGE_CURVE('',#222,#230,#232,.T.);
#230 = VERTEX_POINT('',#231);
#231 = CARTESIAN_POINT('',(-0.7,0.,8.7));
#232 = LINE('',#233,#234);
#233 = CARTESIAN_POINT('',(4.7,0.,8.7));
#234 = VECTOR('',#235,1.);
#235 = DIRECTION('',(-1.,0.,0.));
#236 = ORIENTED_EDGE('',*,*,#237,.F.);
#237 = EDGE_CURVE('',#238,#230,#240,.T.);
#238 = VERTEX_POINT('',#239);
#239 = CARTESIAN_POINT('',(-0.7,3.291959594929E-16,7.7));
#240 = LINE('',#241,#242);
#241 = CARTESIAN_POINT('',(-0.7,0.,0.));
#242 = VECTOR('',#243,1.);
#243 = DIRECTION('',(0.,0.,1.));
#244 = ORIENTED_EDGE('',*,*,#245,.F.);
#245 = EDGE_CURVE('',#246,#238,#248,.T.);
#246 = VERTEX_POINT('',#247);
#247 = CARTESIAN_POINT('',(0.,0.,7.));
#248 = LINE('',#249,#250);
#249 = CARTESIAN_POINT('',(0.,5.E-16,7.));
#250 = VECTOR('',#251,1.);
#251 = DIRECTION('',(-0.707106781187,1.6E-16,0.707106781187));
#252 = ORIENTED_EDGE('',*,*,#253,.F.);
#253 = EDGE_CURVE('',#254,#246,#256,.T.);
#254 = VERTEX_POINT('',#255);
#255 = CARTESIAN_POINT('',(0.,0.,2.5));
#256 = LINE('',#257,#258);
#257 = CARTESIAN_POINT('',(0.,-5.E-16,2.5));
#258 = VECTOR('',#259,1.);
#259 = DIRECTION('',(0.,2.2E-16,1.));
#260 = ORIENTED_EDGE('',*,*,#261,.F.);
#261 = EDGE_CURVE('',#168,#254,#262,.T.);
#262 = LINE('',#263,#264);
#263 = CARTESIAN_POINT('',(-1.,-7.2E-16,1.5));
#264 = VECTOR('',#265,1.);
#265 = DIRECTION('',(0.707106781187,1.6E-16,0.707106781187));
#266 = PLANE('',#267);
#267 = AXIS2_PLACEMENT_3D('',#268,#269,#270);
#268 = CARTESIAN_POINT('',(4.7,0.,0.));
#269 = DIRECTION('',(0.,-1.,0.));
#270 = DIRECTION('',(-1.,0.,0.));
#271 = ADVANCED_FACE('',(#272),#290,.T.);
#272 = FACE_BOUND('',#273,.F.);
#273 = EDGE_LOOP('',(#274,#275,#276,#284));
#274 = ORIENTED_EDGE('',*,*,#103,.F.);
#275 = ORIENTED_EDGE('',*,*,#73,.T.);
#276 = ORIENTED_EDGE('',*,*,#277,.T.);
#277 = EDGE_CURVE('',#64,#278,#280,.T.);
#278 = VERTEX_POINT('',#279);
#279 = CARTESIAN_POINT('',(4.2,-0.5,1.387778780781E-16));
#280 = LINE('',#281,#282);
#281 = CARTESIAN_POINT('',(4.083333333333,-0.616666666667,
    -0.116666666667));
#282 = VECTOR('',#283,1.);
#283 = DIRECTION('',(-0.57735026919,-0.57735026919,-0.57735026919));
#284 = ORIENTED_EDGE('',*,*,#285,.F.);
#285 = EDGE_CURVE('',#104,#278,#286,.T.);
#286 = LINE('',#287,#288);
#287 = CARTESIAN_POINT('',(4.2,-2.7,0.));
#288 = VECTOR('',#289,1.);
#289 = DIRECTION('',(1.6E-16,1.,0.));
#290 = PLANE('',#291);
#291 = AXIS2_PLACEMENT_3D('',#292,#293,#294);
#292 = CARTESIAN_POINT('',(4.45,-2.7,0.25));
#293 = DIRECTION('',(0.707106781187,-1.25211951156E-16,-0.707106781187)
  );
#294 = DIRECTION('',(-1.68538219748E-16,-1.,8.538219747983E-18));
#295 = ADVANCED_FACE('',(#296),#307,.F.);
#296 = FACE_BOUND('',#297,.F.);
#297 = EDGE_LOOP('',(#298,#299,#300,#306));
#298 = ORIENTED_EDGE('',*,*,#80,.T.);
#299 = ORIENTED_EDGE('',*,*,#135,.T.);
#300 = ORIENTED_EDGE('',*,*,#301,.T.);
#301 = EDGE_CURVE('',#136,#198,#302,.T.);
#302 = LINE('',#303,#304);
#303 = CARTESIAN_POINT('',(4.,-2.7,2.5));
#304 = VECTOR('',#305,1.);
#305 = DIRECTION('',(1.7E-16,1.,-1.7E-16));
#306 = ORIENTED_EDGE('',*,*,#197,.F.);
#307 = PLANE('',#308);
#308 = AXIS2_PLACEMENT_3D('',#309,#310,#311);
#309 = CARTESIAN_POINT('',(5.,-2.7,1.5));
#310 = DIRECTION('',(-0.707106781187,-0.,-0.707106781187));
#311 = DIRECTION('',(-0.707106781187,2.4E-16,0.707106781187));
#312 = ADVANCED_FACE('',(#313),#331,.T.);
#313 = FACE_BOUND('',#314,.F.);
#314 = EDGE_LOOP('',(#315,#323,#324,#325));
#315 = ORIENTED_EDGE('',*,*,#316,.F.);
#316 = EDGE_CURVE('',#160,#317,#319,.T.);
#317 = VERTEX_POINT('',#318);
#318 = CARTESIAN_POINT('',(-0.2,-0.5,0.));
#319 = LINE('',#320,#321);
#320 = CARTESIAN_POINT('',(0.366666666667,-1.066666666667,
    -0.566666666667));
#321 = VECTOR('',#322,1.);
#322 = DIRECTION('',(0.57735026919,-0.57735026919,-0.57735026919));
#323 = ORIENTED_EDGE('',*,*,#159,.T.);
#324 = ORIENTED_EDGE('',*,*,#94,.T.);
#325 = ORIENTED_EDGE('',*,*,#326,.F.);
#326 = EDGE_CURVE('',#317,#95,#327,.T.);
#327 = LINE('',#328,#329);
#328 = CARTESIAN_POINT('',(-0.2,0.,0.));
#329 = VECTOR('',#330,1.);
#330 = DIRECTION('',(0.,-1.,0.));
#331 = PLANE('',#332);
#332 = AXIS2_PLACEMENT_3D('',#333,#334,#335);
#333 = CARTESIAN_POINT('',(-0.45,0.,0.25));
#334 = DIRECTION('',(-0.707106781187,0.,-0.707106781187));
#335 = DIRECTION('',(-0.,1.,0.));
#336 = ADVANCED_FACE('',(#337,#348),#359,.F.);
#337 = FACE_BOUND('',#338,.F.);
#338 = EDGE_LOOP('',(#339,#340,#341,#342));
#339 = ORIENTED_EDGE('',*,*,#326,.T.);
#340 = ORIENTED_EDGE('',*,*,#111,.T.);
#341 = ORIENTED_EDGE('',*,*,#285,.T.);
#342 = ORIENTED_EDGE('',*,*,#343,.T.);
#343 = EDGE_CURVE('',#278,#317,#344,.T.);
#344 = LINE('',#345,#346);
#345 = CARTESIAN_POINT('',(4.7,-0.5,0.));
#346 = VECTOR('',#347,1.);
#347 = DIRECTION('',(-1.,0.,0.));
#348 = FACE_BOUND('',#349,.F.);
#349 = EDGE_LOOP('',(#350));
#350 = ORIENTED_EDGE('',*,*,#351,.T.);
#351 = EDGE_CURVE('',#352,#352,#354,.T.);
#352 = VERTEX_POINT('',#353);
#353 = CARTESIAN_POINT('',(2.,-1.,-1.E-15));
#354 = CIRCLE('',#355,1.7);
#355 = AXIS2_PLACEMENT_3D('',#356,#357,#358);
#356 = CARTESIAN_POINT('',(2.,-2.7,-2.8E-16));
#357 = DIRECTION('',(5.6E-16,-3.9E-16,-1.));
#358 = DIRECTION('',(2.2E-16,1.,-3.9E-16));
#359 = PLANE('',#360);
#360 = AXIS2_PLACEMENT_3D('',#361,#362,#363);
#361 = CARTESIAN_POINT('',(2.,-2.210933882919,0.));
#362 = DIRECTION('',(0.,0.,1.));
#363 = DIRECTION('',(-1.,0.,0.));
#364 = ADVANCED_FACE('',(#365),#376,.F.);
#365 = FACE_BOUND('',#366,.F.);
#366 = EDGE_LOOP('',(#367,#368,#369,#375));
#367 = ORIENTED_EDGE('',*,*,#175,.T.);
#368 = ORIENTED_EDGE('',*,*,#261,.T.);
#369 = ORIENTED_EDGE('',*,*,#370,.T.);
#370 = EDGE_CURVE('',#254,#127,#371,.T.);
#371 = LINE('',#372,#373);
#372 = CARTESIAN_POINT('',(2.2E-16,-5.E-16,2.5));
#373 = VECTOR('',#374,1.);
#374 = DIRECTION('',(1.1E-16,-1.,1.1E-16));
#375 = ORIENTED_EDGE('',*,*,#126,.F.);
#376 = PLANE('',#377);
#377 = AXIS2_PLACEMENT_3D('',#378,#379,#380);
#378 = CARTESIAN_POINT('',(-1.,-7.2E-16,1.5));
#379 = DIRECTION('',(0.707106781187,0.,-0.707106781187));
#380 = DIRECTION('',(0.707106781187,1.6E-16,0.707106781187));
#381 = ADVANCED_FACE('',(#382),#408,.T.);
#382 = FACE_BOUND('',#383,.T.);
#383 = EDGE_LOOP('',(#384,#385,#393,#402));
#384 = ORIENTED_EDGE('',*,*,#143,.T.);
#385 = ORIENTED_EDGE('',*,*,#386,.T.);
#386 = EDGE_CURVE('',#136,#387,#389,.T.);
#387 = VERTEX_POINT('',#388);
#388 = CARTESIAN_POINT('',(4.,-2.7,7.));
#389 = LINE('',#390,#391);
#390 = CARTESIAN_POINT('',(4.,-2.7,2.5));
#391 = VECTOR('',#392,1.);
#392 = DIRECTION('',(0.,0.,1.));
#393 = ORIENTED_EDGE('',*,*,#394,.F.);
#394 = EDGE_CURVE('',#395,#387,#397,.T.);
#395 = VERTEX_POINT('',#396);
#396 = CARTESIAN_POINT('',(0.,-2.7,7.));
#397 = CIRCLE('',#398,2.);
#398 = AXIS2_PLACEMENT_3D('',#399,#400,#401);
#399 = CARTESIAN_POINT('',(2.,-2.7,7.));
#400 = DIRECTION('',(0.,-0.,1.));
#401 = DIRECTION('',(1.,2.2E-16,0.));
#402 = ORIENTED_EDGE('',*,*,#403,.F.);
#403 = EDGE_CURVE('',#127,#395,#404,.T.);
#404 = LINE('',#405,#406);
#405 = CARTESIAN_POINT('',(0.,-2.7,2.5));
#406 = VECTOR('',#407,1.);
#407 = DIRECTION('',(0.,2.2E-16,1.));
#408 = CYLINDRICAL_SURFACE('',#409,2.);
#409 = AXIS2_PLACEMENT_3D('',#410,#411,#412);
#410 = CARTESIAN_POINT('',(2.,-2.7,2.5));
#411 = DIRECTION('',(0.,0.,1.));
#412 = DIRECTION('',(1.,2.2E-16,0.));
#413 = ADVANCED_FACE('',(#414),#420,.T.);
#414 = FACE_BOUND('',#415,.T.);
#415 = EDGE_LOOP('',(#416,#417,#418,#419));
#416 = ORIENTED_EDGE('',*,*,#277,.T.);
#417 = ORIENTED_EDGE('',*,*,#343,.T.);
#418 = ORIENTED_EDGE('',*,*,#316,.F.);
#419 = ORIENTED_EDGE('',*,*,#190,.F.);
#420 = PLANE('',#421);
#421 = AXIS2_PLACEMENT_3D('',#422,#423,#424);
#422 = CARTESIAN_POINT('',(4.7,-0.25,0.25));
#423 = DIRECTION('',(0.,0.707106781187,-0.707106781187));
#424 = DIRECTION('',(-1.,0.,0.));
#425 = ADVANCED_FACE('',(#426),#437,.F.);
#426 = FACE_BOUND('',#427,.F.);
#427 = EDGE_LOOP('',(#428,#429,#430,#436));
#428 = ORIENTED_EDGE('',*,*,#370,.F.);
#429 = ORIENTED_EDGE('',*,*,#253,.T.);
#430 = ORIENTED_EDGE('',*,*,#431,.T.);
#431 = EDGE_CURVE('',#246,#395,#432,.T.);
#432 = LINE('',#433,#434);
#433 = CARTESIAN_POINT('',(0.,5.E-16,7.));
#434 = VECTOR('',#435,1.);
#435 = DIRECTION('',(0.,-1.,2.2E-16));
#436 = ORIENTED_EDGE('',*,*,#403,.F.);
#437 = PLANE('',#438);
#438 = AXIS2_PLACEMENT_3D('',#439,#440,#441);
#439 = CARTESIAN_POINT('',(0.,-5.E-16,2.5));
#440 = DIRECTION('',(1.,0.,0.));
#441 = DIRECTION('',(0.,2.2E-16,1.));
#442 = ADVANCED_FACE('',(#443),#461,.F.);
#443 = FACE_BOUND('',#444,.F.);
#444 = EDGE_LOOP('',(#445,#446,#447,#455));
#445 = ORIENTED_EDGE('',*,*,#431,.F.);
#446 = ORIENTED_EDGE('',*,*,#245,.T.);
#447 = ORIENTED_EDGE('',*,*,#448,.T.);
#448 = EDGE_CURVE('',#238,#449,#451,.T.);
#449 = VERTEX_POINT('',#450);
#450 = CARTESIAN_POINT('',(-0.7,-2.7,7.7));
#451 = LINE('',#452,#453);
#452 = CARTESIAN_POINT('',(-0.7,2.5E-16,7.7));
#453 = VECTOR('',#454,1.);
#454 = DIRECTION('',(0.,-1.,0.));
#455 = ORIENTED_EDGE('',*,*,#456,.F.);
#456 = EDGE_CURVE('',#395,#449,#457,.T.);
#457 = LINE('',#458,#459);
#458 = CARTESIAN_POINT('',(-3.E-16,-2.7,7.));
#459 = VECTOR('',#460,1.);
#460 = DIRECTION('',(-0.707106781187,1.6E-16,0.707106781187));
#461 = PLANE('',#462);
#462 = AXIS2_PLACEMENT_3D('',#463,#464,#465);
#463 = CARTESIAN_POINT('',(0.,5.E-16,7.));
#464 = DIRECTION('',(0.707106781187,0.,0.707106781187));
#465 = DIRECTION('',(-0.707106781187,1.6E-16,0.707106781187));
#466 = ADVANCED_FACE('',(#467),#478,.F.);
#467 = FACE_BOUND('',#468,.F.);
#468 = EDGE_LOOP('',(#469,#470,#471,#477));
#469 = ORIENTED_EDGE('',*,*,#301,.F.);
#470 = ORIENTED_EDGE('',*,*,#386,.T.);
#471 = ORIENTED_EDGE('',*,*,#472,.T.);
#472 = EDGE_CURVE('',#387,#206,#473,.T.);
#473 = LINE('',#474,#475);
#474 = CARTESIAN_POINT('',(4.,-2.7,7.));
#475 = VECTOR('',#476,1.);
#476 = DIRECTION('',(0.,1.,2.2E-16));
#477 = ORIENTED_EDGE('',*,*,#205,.F.);
#478 = PLANE('',#479);
#479 = AXIS2_PLACEMENT_3D('',#480,#481,#482);
#480 = CARTESIAN_POINT('',(4.,-2.7,2.5));
#481 = DIRECTION('',(-1.,-0.,-0.));
#482 = DIRECTION('',(0.,-2.2E-16,1.));
#483 = ADVANCED_FACE('',(#484),#502,.F.);
#484 = FACE_BOUND('',#485,.F.);
#485 = EDGE_LOOP('',(#486,#487,#488,#496));
#486 = ORIENTED_EDGE('',*,*,#448,.F.);
#487 = ORIENTED_EDGE('',*,*,#237,.T.);
#488 = ORIENTED_EDGE('',*,*,#489,.T.);
#489 = EDGE_CURVE('',#230,#490,#492,.T.);
#490 = VERTEX_POINT('',#491);
#491 = CARTESIAN_POINT('',(-0.7,-2.7,8.7));
#492 = LINE('',#493,#494);
#493 = CARTESIAN_POINT('',(-0.7,0.,8.7));
#494 = VECTOR('',#495,1.);
#495 = DIRECTION('',(0.,-1.,0.));
#496 = ORIENTED_EDGE('',*,*,#497,.F.);
#497 = EDGE_CURVE('',#449,#490,#498,.T.);
#498 = LINE('',#499,#500);
#499 = CARTESIAN_POINT('',(-0.7,-2.7,0.));
#500 = VECTOR('',#501,1.);
#501 = DIRECTION('',(0.,0.,1.));
#502 = PLANE('',#503);
#503 = AXIS2_PLACEMENT_3D('',#504,#505,#506);
#504 = CARTESIAN_POINT('',(-0.7,0.,0.));
#505 = DIRECTION('',(1.,0.,0.));
#506 = DIRECTION('',(0.,-1.,0.));
#507 = ADVANCED_FACE('',(#508),#526,.F.);
#508 = FACE_BOUND('',#509,.F.);
#509 = EDGE_LOOP('',(#510,#511,#519,#525));
#510 = ORIENTED_EDGE('',*,*,#472,.F.);
#511 = ORIENTED_EDGE('',*,*,#512,.T.);
#512 = EDGE_CURVE('',#387,#513,#515,.T.);
#513 = VERTEX_POINT('',#514);
#514 = CARTESIAN_POINT('',(4.7,-2.7,7.7));
#515 = LINE('',#516,#517);
#516 = CARTESIAN_POINT('',(4.,-2.7,7.));
#517 = VECTOR('',#518,1.);
#518 = DIRECTION('',(0.707106781187,-3.3E-16,0.707106781187));
#519 = ORIENTED_EDGE('',*,*,#520,.T.);
#520 = EDGE_CURVE('',#513,#214,#521,.T.);
#521 = LINE('',#522,#523);
#522 = CARTESIAN_POINT('',(4.7,-2.7,7.7));
#523 = VECTOR('',#524,1.);
#524 = DIRECTION('',(1.6E-16,1.,1.6E-16));
#525 = ORIENTED_EDGE('',*,*,#213,.F.);
#526 = PLANE('',#527);
#527 = AXIS2_PLACEMENT_3D('',#528,#529,#530);
#528 = CARTESIAN_POINT('',(4.,-2.7,7.));
#529 = DIRECTION('',(-0.707106781187,0.,0.707106781187));
#530 = DIRECTION('',(0.707106781187,-5.6E-16,0.707106781187));
#531 = ADVANCED_FACE('',(#532,#551),#562,.T.);
#532 = FACE_BOUND('',#533,.T.);
#533 = EDGE_LOOP('',(#534,#543,#549,#550));
#534 = ORIENTED_EDGE('',*,*,#535,.T.);
#535 = EDGE_CURVE('',#490,#536,#538,.T.);
#536 = VERTEX_POINT('',#537);
#537 = CARTESIAN_POINT('',(4.7,-2.7,8.7));
#538 = CIRCLE('',#539,2.7);
#539 = AXIS2_PLACEMENT_3D('',#540,#541,#542);
#540 = CARTESIAN_POINT('',(2.,-2.7,8.7));
#541 = DIRECTION('',(0.,0.,1.));
#542 = DIRECTION('',(-1.,0.,0.));
#543 = ORIENTED_EDGE('',*,*,#544,.T.);
#544 = EDGE_CURVE('',#536,#222,#545,.T.);
#545 = LINE('',#546,#547);
#546 = CARTESIAN_POINT('',(4.7,-2.7,8.7));
#547 = VECTOR('',#548,1.);
#548 = DIRECTION('',(1.6E-16,1.,0.));
#549 = ORIENTED_EDGE('',*,*,#229,.T.);
#550 = ORIENTED_EDGE('',*,*,#489,.T.);
#551 = FACE_BOUND('',#552,.T.);
#552 = EDGE_LOOP('',(#553));
#553 = ORIENTED_EDGE('',*,*,#554,.F.);
#554 = EDGE_CURVE('',#555,#555,#557,.T.);
#555 = VERTEX_POINT('',#556);
#556 = CARTESIAN_POINT('',(2.,-1.6,8.7));
#557 = CIRCLE('',#558,1.1);
#558 = AXIS2_PLACEMENT_3D('',#559,#560,#561);
#559 = CARTESIAN_POINT('',(2.,-2.7,8.7));
#560 = DIRECTION('',(-5.6E-16,3.9E-16,1.));
#561 = DIRECTION('',(2.2E-16,1.,-3.9E-16));
#562 = PLANE('',#563);
#563 = AXIS2_PLACEMENT_3D('',#564,#565,#566);
#564 = CARTESIAN_POINT('',(2.,-2.210933882919,8.7));
#565 = DIRECTION('',(0.,0.,1.));
#566 = DIRECTION('',(-1.,0.,0.));
#567 = ADVANCED_FACE('',(#568),#579,.F.);
#568 = FACE_BOUND('',#569,.F.);
#569 = EDGE_LOOP('',(#570,#571,#577,#578));
#570 = ORIENTED_EDGE('',*,*,#520,.F.);
#571 = ORIENTED_EDGE('',*,*,#572,.T.);
#572 = EDGE_CURVE('',#513,#536,#573,.T.);
#573 = LINE('',#574,#575);
#574 = CARTESIAN_POINT('',(4.7,-2.7,0.));
#575 = VECTOR('',#576,1.);
#576 = DIRECTION('',(0.,0.,1.));
#577 = ORIENTED_EDGE('',*,*,#544,.T.);
#578 = ORIENTED_EDGE('',*,*,#221,.F.);
#579 = PLANE('',#580);
#580 = AXIS2_PLACEMENT_3D('',#581,#582,#583);
#581 = CARTESIAN_POINT('',(4.7,-2.7,0.));
#582 = DIRECTION('',(-1.,1.6E-16,0.));
#583 = DIRECTION('',(1.6E-16,1.,0.));
#584 = ADVANCED_FACE('',(#585),#604,.F.);
#585 = FACE_BOUND('',#586,.T.);
#586 = EDGE_LOOP('',(#587,#588,#596,#603));
#587 = ORIENTED_EDGE('',*,*,#351,.T.);
#588 = ORIENTED_EDGE('',*,*,#589,.T.);
#589 = EDGE_CURVE('',#352,#590,#592,.T.);
#590 = VERTEX_POINT('',#591);
#591 = CARTESIAN_POINT('',(2.,-1.,2.));
#592 = LINE('',#593,#594);
#593 = CARTESIAN_POINT('',(2.,-1.,-5.7E-16));
#594 = VECTOR('',#595,1.);
#595 = DIRECTION('',(-3.3E-16,-1.1E-16,1.));
#596 = ORIENTED_EDGE('',*,*,#597,.F.);
#597 = EDGE_CURVE('',#590,#590,#598,.T.);
#598 = CIRCLE('',#599,1.7);
#599 = AXIS2_PLACEMENT_3D('',#600,#601,#602);
#600 = CARTESIAN_POINT('',(2.,-2.7,2.));
#601 = DIRECTION('',(5.6E-16,-3.9E-16,-1.));
#602 = DIRECTION('',(2.2E-16,1.,-3.9E-16));
#603 = ORIENTED_EDGE('',*,*,#589,.F.);
#604 = CYLINDRICAL_SURFACE('',#605,1.7);
#605 = AXIS2_PLACEMENT_3D('',#606,#607,#608);
#606 = CARTESIAN_POINT('',(2.,-2.7,-2.8E-16));
#607 = DIRECTION('',(-5.6E-16,3.9E-16,1.));
#608 = DIRECTION('',(2.2E-16,1.,-3.9E-16));
#609 = ADVANCED_FACE('',(#610),#622,.T.);
#610 = FACE_BOUND('',#611,.T.);
#611 = EDGE_LOOP('',(#612,#613,#614,#615));
#612 = ORIENTED_EDGE('',*,*,#456,.F.);
#613 = ORIENTED_EDGE('',*,*,#394,.T.);
#614 = ORIENTED_EDGE('',*,*,#512,.T.);
#615 = ORIENTED_EDGE('',*,*,#616,.T.);
#616 = EDGE_CURVE('',#513,#449,#617,.T.);
#617 = CIRCLE('',#618,2.7);
#618 = AXIS2_PLACEMENT_3D('',#619,#620,#621);
#619 = CARTESIAN_POINT('',(2.,-2.7,7.7));
#620 = DIRECTION('',(0.,0.,-1.));
#621 = DIRECTION('',(0.,1.,0.));
#622 = CONICAL_SURFACE('',#623,2.,0.785398163397);
#623 = AXIS2_PLACEMENT_3D('',#624,#625,#626);
#624 = CARTESIAN_POINT('',(2.,-2.7,7.));
#625 = DIRECTION('',(0.,0.,1.));
#626 = DIRECTION('',(1.,-2.2E-16,0.));
#627 = ADVANCED_FACE('',(#628),#634,.T.);
#628 = FACE_BOUND('',#629,.F.);
#629 = EDGE_LOOP('',(#630,#631,#632,#633));
#630 = ORIENTED_EDGE('',*,*,#616,.T.);
#631 = ORIENTED_EDGE('',*,*,#497,.T.);
#632 = ORIENTED_EDGE('',*,*,#535,.T.);
#633 = ORIENTED_EDGE('',*,*,#572,.F.);
#634 = CYLINDRICAL_SURFACE('',#635,2.7);
#635 = AXIS2_PLACEMENT_3D('',#636,#637,#638);
#636 = CARTESIAN_POINT('',(2.,-2.7,0.));
#637 = DIRECTION('',(0.,0.,-1.));
#638 = DIRECTION('',(-1.,0.,0.));
#639 = ADVANCED_FACE('',(#640),#659,.F.);
#640 = FACE_BOUND('',#641,.T.);
#641 = EDGE_LOOP('',(#642,#650,#657,#658));
#642 = ORIENTED_EDGE('',*,*,#643,.F.);
#643 = EDGE_CURVE('',#644,#555,#646,.T.);
#644 = VERTEX_POINT('',#645);
#645 = CARTESIAN_POINT('',(2.,-1.6,8.5));
#646 = LINE('',#647,#648);
#647 = CARTESIAN_POINT('',(2.,-1.6,8.5));
#648 = VECTOR('',#649,1.);
#649 = DIRECTION('',(-3.3E-16,-1.1E-16,1.));
#650 = ORIENTED_EDGE('',*,*,#651,.T.);
#651 = EDGE_CURVE('',#644,#644,#652,.T.);
#652 = CIRCLE('',#653,1.1);
#653 = AXIS2_PLACEMENT_3D('',#654,#655,#656);
#654 = CARTESIAN_POINT('',(2.,-2.7,8.5));
#655 = DIRECTION('',(5.6E-16,-3.9E-16,-1.));
#656 = DIRECTION('',(2.2E-16,1.,-3.9E-16));
#657 = ORIENTED_EDGE('',*,*,#643,.T.);
#658 = ORIENTED_EDGE('',*,*,#554,.T.);
#659 = CYLINDRICAL_SURFACE('',#660,1.1);
#660 = AXIS2_PLACEMENT_3D('',#661,#662,#663);
#661 = CARTESIAN_POINT('',(2.,-2.7,8.5));
#662 = DIRECTION('',(-5.6E-16,3.9E-16,1.));
#663 = DIRECTION('',(2.2E-16,1.,-3.9E-16));
#664 = ADVANCED_FACE('',(#665),#684,.F.);
#665 = FACE_BOUND('',#666,.F.);
#666 = EDGE_LOOP('',(#667,#676,#682,#683));
#667 = ORIENTED_EDGE('',*,*,#668,.T.);
#668 = EDGE_CURVE('',#669,#669,#671,.T.);
#669 = VERTEX_POINT('',#670);
#670 = CARTESIAN_POINT('',(2.,-1.6,3.));
#671 = CIRCLE('',#672,1.1);
#672 = AXIS2_PLACEMENT_3D('',#673,#674,#675);
#673 = CARTESIAN_POINT('',(2.,-2.7,3.));
#674 = DIRECTION('',(5.6E-16,-3.9E-16,-1.));
#675 = DIRECTION('',(2.2E-16,1.,-3.9E-16));
#676 = ORIENTED_EDGE('',*,*,#677,.T.);
#677 = EDGE_CURVE('',#669,#590,#678,.T.);
#678 = LINE('',#679,#680);
#679 = CARTESIAN_POINT('',(2.,-1.6,3.));
#680 = VECTOR('',#681,1.);
#681 = DIRECTION('',(1.7E-16,0.514495755428,-0.857492925713));
#682 = ORIENTED_EDGE('',*,*,#597,.F.);
#683 = ORIENTED_EDGE('',*,*,#677,.F.);
#684 = CONICAL_SURFACE('',#685,1.1,0.540419500271);
#685 = AXIS2_PLACEMENT_3D('',#686,#687,#688);
#686 = CARTESIAN_POINT('',(2.,-2.7,3.));
#687 = DIRECTION('',(5.6E-16,-3.9E-16,-1.));
#688 = DIRECTION('',(2.2E-16,1.,-3.9E-16));
#689 = ADVANCED_FACE('',(#690),#701,.F.);
#690 = FACE_BOUND('',#691,.T.);
#691 = EDGE_LOOP('',(#692,#693,#699,#700));
#692 = ORIENTED_EDGE('',*,*,#668,.T.);
#693 = ORIENTED_EDGE('',*,*,#694,.T.);
#694 = EDGE_CURVE('',#669,#644,#695,.T.);
#695 = LINE('',#696,#697);
#696 = CARTESIAN_POINT('',(2.,-1.6,3.));
#697 = VECTOR('',#698,1.);
#698 = DIRECTION('',(-3.3E-16,-1.1E-16,1.));
#699 = ORIENTED_EDGE('',*,*,#651,.F.);
#700 = ORIENTED_EDGE('',*,*,#694,.F.);
#701 = CYLINDRICAL_SURFACE('',#702,1.1);
#702 = AXIS2_PLACEMENT_3D('',#703,#704,#705);
#703 = CARTESIAN_POINT('',(2.,-2.7,3.));
#704 = DIRECTION('',(-5.6E-16,3.9E-16,1.));
#705 = DIRECTION('',(2.2E-16,1.,-3.9E-16));
#706 = ( GEOMETRIC_REPRESENTATION_CONTEXT(3) 
GLOBAL_UNCERTAINTY_ASSIGNED_CONTEXT((#710)) GLOBAL_UNIT_ASSIGNED_CONTEXT
((#707,#708,#709)) REPRESENTATION_CONTEXT('Context #1',
  '3D Context with UNIT and UNCERTAINTY') );
#707 = ( LENGTH_UNIT() NAMED_UNIT(*) SI_UNIT(.MILLI.,.METRE.) );
#708 = ( NAMED_UNIT(*) PLANE_ANGLE_UNIT() SI_UNIT($,.RADIAN.) );
#709 = ( NAMED_UNIT(*) SI_UNIT($,.STERADIAN.) SOLID_ANGLE_UNIT() );
#710 = UNCERTAINTY_MEASURE_WITH_UNIT(LENGTH_MEASURE(1.E-07),#707,
  'distance_accuracy_value','confusion accuracy');
#711 = PRODUCT_RELATED_PRODUCT_CATEGORY('part',$,(#7));
#712 = MECHANICAL_DESIGN_GEOMETRIC_PRESENTATION_REPRESENTATION('',(#713)
  ,#706);
#713 = STYLED_ITEM('color',(#714),#15);
#714 = PRESENTATION_STYLE_ASSIGNMENT((#715,#721));
#715 = SURFACE_STYLE_USAGE(.BOTH.,#716);
#716 = SURFACE_SIDE_STYLE('',(#717));
#717 = SURFACE_STYLE_FILL_AREA(#718);
#718 = FILL_AREA_STYLE('',(#719));
#719 = FILL_AREA_STYLE_COLOUR('',#720);
#720 = COLOUR_RGB('',0.800000010877,0.800000010877,0.800000010877);
#721 = CURVE_STYLE('',#722,POSITIVE_LENGTH_MEASURE(0.1),#723);
#722 = DRAUGHTING_PRE_DEFINED_CURVE_FONT('continuous');
#723 = COLOUR_RGB('',9.803921802644E-02,9.803921802644E-02,
  9.803921802644E-02);
ENDSEC;
END-ISO-10303-21;
